  0
SECTION
  2
HEADER
  9
$ACADVER
  1
AC1009
  9
$INSBASE
 10
34.81535327270478
 20
83.34241376801985
 30
0.0
  9
$EXTMIN
 10
34.11972354118169
 20
83.34241376801985
 30
0.0
  9
$EXTMAX
 10
385.633476480261
 20
366.9820256265304
 30
0.0
  9
$LIMMIN
 10
144.8381563856326
 20
314.8402023883776
  9
$LIMMAX
 10
377.9141579767446
 20
521.4853114176895
  9
$ORTHOMODE
 70
     1
  9
$REGENMODE
 70
     0
  9
$FILLMODE
 70
     1
  9
$QTEXTMODE
 70
     0
  9
$MIRRTEXT
 70
     0
  9
$DRAGMODE
 70
     2
  9
$LTSCALE
 40
1.0
  9
$OSMODE
 70
     0
  9
$ATTMODE
 70
     1
  9
$TEXTSIZE
 40
3.5
  9
$TRACEWID
 40
0.1
  9
$TEXTSTYLE
  7
STANDARD
  9
$CLAYER
  8
0
  9
$CELTYPE
  6
BYLAYER
  9
$CECOLOR
 62
   256
  9
$DIMSCALE
 40
1.0
  9
$DIMASZ
 40
2.5
  9
$DIMEXO
 40
1.0
  9
$DIMDLI
 40
8.0
  9
$DIMRND
 40
0.0
  9
$DIMDLE
 40
0.0
  9
$DIMEXE
 40
2.0
  9
$DIMTP
 40
0.1
  9
$DIMTM
 40
0.1
  9
$DIMTXT
 40
3.5
  9
$DIMCEN
 40
2.0
  9
$DIMTSZ
 40
0.0
  9
$DIMTOL
 70
     0
  9
$DIMLIM
 70
     0
  9
$DIMTIH
 70
     0
  9
$DIMTOH
 70
     0
  9
$DIMSE1
 70
     0
  9
$DIMSE2
 70
     0
  9
$DIMTAD
 70
     1
  9
$DIMZIN
 70
     8
  9
$DIMBLK
  1

  9
$DIMASO
 70
     1
  9
$DIMSHO
 70
     1
  9
$DIMPOST
  1

  9
$DIMAPOST
  1

  9
$DIMALT
 70
     0
  9
$DIMALTD
 70
     2
  9
$DIMALTF
 40
25.39999999999999
  9
$DIMLFAC
 40
1.0
  9
$DIMTOFL
 70
     1
  9
$DIMTVP
 40
0.0
  9
$DIMTIX
 70
     0
  9
$DIMSOXD
 70
     0
  9
$DIMSAH
 70
     0
  9
$DIMBLK1
  1

  9
$DIMBLK2
  1

  9
$DIMSTYLE
  2
*UNNAMED
  9
$DIMCLRD
 70
   256
  9
$DIMCLRE
 70
   256
  9
$DIMCLRT
 70
     2
  9
$DIMTFAC
 40
0.71
  9
$DIMGAP
 40
1.5
  9
$LUNITS
 70
     2
  9
$LUPREC
 70
     3
  9
$SKETCHINC
 40
0.1
  9
$FILLETRAD
 40
2.5
  9
$AUNITS
 70
     0
  9
$AUPREC
 70
     1
  9
$MENU
  1

  9
$ELEVATION
 40
0.0
  9
$PELEVATION
 40
0.0
  9
$THICKNESS
 40
0.0
  9
$LIMCHECK
 70
     0
  9
$BLIPMODE
 70
     0
  9
$CHAMFERA
 40
2.5
  9
$CHAMFERB
 40
2.5
  9
$SKPOLY
 70
     1
  9
$TDCREATE
 40
2449314.610548263
  9
$TDUPDATE
 40
2449394.637246296
  9
$TDINDWG
 40
0.0026107639
  9
$TDUSRTIMER
 40
0.0026107639
  9
$USRTIMER
 70
     1
  9
$ANGBASE
 50
0.0
  9
$ANGDIR
 70
     0
  9
$PDMODE
 70
     3
  9
$PDSIZE
 40
0.0
  9
$PLINEWID
 40
0.0
  9
$COORDS
 70
     2
  9
$SPLFRAME
 70
     0
  9
$SPLINETYPE
 70
     6
  9
$SPLINESEGS
 70
     8
  9
$ATTDIA
 70
     1
  9
$ATTREQ
 70
     1
  9
$HANDLING
 70
     0
  9
$HANDSEED
  5
807BE
  9
$SURFTAB1
 70
     6
  9
$SURFTAB2
 70
     6
  9
$SURFTYPE
 70
     6
  9
$SURFU
 70
     6
  9
$SURFV
 70
     6
  9
$UCSNAME
  2

  9
$UCSORG
 10
0.0
 20
0.0
 30
0.0
  9
$UCSXDIR
 10
1.0
 20
0.0
 30
0.0
  9
$UCSYDIR
 10
0.0
 20
1.0
 30
0.0
  9
$PUCSNAME
  2

  9
$PUCSORG
 10
0.0
 20
0.0
 30
0.0
  9
$PUCSXDIR
 10
1.0
 20
0.0
 30
0.0
  9
$PUCSYDIR
 10
0.0
 20
1.0
 30
0.0
  9
$USERI1
 70
     0
  9
$USERI2
 70
     3
  9
$USERI3
 70
    15
  9
$USERI4
 70
     0
  9
$USERI5
 70
     0
  9
$USERR1
 40
1.0
  9
$USERR2
 40
1.0
  9
$USERR3
 40
0.0
  9
$USERR4
 40
1.0
  9
$USERR5
 40
0.0
  9
$WORLDVIEW
 70
     5
  9
$SHADEDGE
 70
     3
  9
$SHADEDIF
 70
    70
  9
$TILEMODE
 70
     1
  9
$MAXACTVP
 70
     4
  9
$PINSBASE
 10
0.0
 20
0.0
 30
0.0
  9
$PLIMCHECK
 70
     0
  9
$PEXTMIN
 10
1.000000000000000E+20
 20
1.000000000000000E+20
 30
1.000000000000000E+20
  9
$PEXTMAX
 10
-1.000000000000000E+20
 20
-1.000000000000000E+20
 30
-1.000000000000000E+20
  9
$PLIMMIN
 10
0.0
 20
0.0
  9
$PLIMMAX
 10
12.0
 20
12.0
  9
$UNITMODE
 70
     0
  9
$VISRETAIN
 70
     0
  9
$PLINEGEN
 70
     0
  9
$PSLTSCALE
 70
     0
  9
$TREEDEPTH
 70
  3020
  9
$DWGCODEPAGE
  3
undefined
  0
ENDSEC
  0
SECTION
  2
TABLES
  0
TABLE
  2
VPORT
 70
     2
  0
VPORT
  2
*ACTIVE
 70
     0
 10
0.0
 20
0.0
 11
1.0
 21
1.0
 12
230.6292057967126
 22
236.8405608737039
 13
0.0
 23
0.0
 14
1.0
 24
1.0
 15
10.0
 25
10.0
 16
0.0
 26
0.0
 36
1.0
 17
0.0
 27
0.0
 37
0.0
 40
306.9962942113683
 41
1.275675675675675
 42
50.0
 43
0.0
 44
0.0
 50
0.0
 51
0.0
 71
     0
 72
   100
 73
     1
 74
     0
 75
     0
 76
     0
 77
     0
 78
     0
  0
ENDTAB
  0
TABLE
  2
LTYPE
 70
     2
  0
LTYPE
  2
CONTINUOUS
 70
    64
  3
Solid line
 72
    65
 73
     0
 40
0.0
  0
LTYPE
  2
ITEM-STRICHPGR
 70
    64
  3
____ . ____ . ____ . ____ . ____ . ____ . ____
 72
    65
 73
     4
 40
15.0
 49
10.0
 49
-2.5
 49
0.0
 49
-2.5
  0
ENDTAB
  0
TABLE
  2
LAYER
 70
     4
  0
LAYER
  2
0
 70
     0
 62
     7
  6
CONTINUOUS
  0
LAYER
  2
ITEM_50
 70
    64
 62
     7
  6
CONTINUOUS
  0
LAYER
  2
ITEM_HILFE
 70
    64
 62
     3
  6
CONTINUOUS
  0
LAYER
  2
ITEM_STPG
 70
    64
 62
     4
  6
ITEM-STRICHPGR
  0
ENDTAB
  0
TABLE
  2
STYLE
 70
     1
  0
STYLE
  2
STANDARD
 70
     0
 40
0.0
 41
1.0
 50
0.0
 71
     0
 42
3.5
  3
GENISO
  4

  0
ENDTAB
  0
TABLE
  2
VIEW
 70
     0
  0
ENDTAB
  0
TABLE
  2
UCS
 70
     0
  0
ENDTAB
  0
TABLE
  2
APPID
 70
     1
  0
APPID
  2
ACAD
 70
    64
  0
ENDTAB
  0
TABLE
  2
DIMSTYLE
 70
     0
  0
ENDTAB
  0
ENDSEC
  0
SECTION
  2
BLOCKS
  0
ENDSEC
  0
SECTION
  2
ENTITIES
  0
ARC
  8
ITEM_50
 10
75.73256876457918
 20
209.9102180474703
 30
0.0
 40
5.0
 50
270.0
 51
0.0
  0
LINE
  8
ITEM_50
 10
80.73256876457918
 20
209.9102180474703
 30
0.0
 11
80.73256876457918
 21
324.9371300474704
 31
0.0
  0
ARC
  8
ITEM_50
 10
75.73256876457918
 20
324.9371300474704
 30
0.0
 40
5.0
 50
0.0
 51
90.0
  0
LINE
  8
ITEM_50
 10
76.25063976457914
 20
329.9102180474703
 30
0.0
 11
53.21449676457922
 21
329.9102180474703
 31
0.0
  0
ARC
  8
ITEM_50
 10
53.73256876457918
 20
324.9371300474704
 30
0.0
 40
5.0
 50
90.0
 51
180.0
  0
LINE
  8
ITEM_50
 10
75.73256876457918
 20
204.9102180474703
 30
0.0
 11
53.73256876457918
 21
204.9102180474703
 31
0.0
  0
ARC
  8
ITEM_50
 10
53.73256876457918
 20
209.9102180474703
 30
0.0
 40
5.0
 50
180.0
 51
270.0
  0
LINE
  8
ITEM_50
 10
48.73256876457918
 20
209.9102180474703
 30
0.0
 11
48.73256876457918
 21
324.9371300474704
 31
0.0
  0
LINE
  8
ITEM_50
 10
339.2309477285778
 20
209.9102180474703
 30
0.0
 11
339.2309477285778
 21
324.9371300474704
 31
0.0
  0
ARC
  8
ITEM_50
 10
344.2309477285778
 20
209.9102180474703
 30
0.0
 40
5.0
 50
180.0
 51
270.0
  0
LINE
  8
ITEM_50
 10
366.2309477285778
 20
204.9102180474703
 30
0.0
 11
344.2309477285778
 21
204.9102180474703
 31
0.0
  0
ARC
  8
ITEM_50
 10
366.2309477285778
 20
209.9102180474703
 30
0.0
 40
5.0
 50
270.0
 51
0.0
  0
LINE
  8
ITEM_50
 10
371.2309477285778
 20
209.9102180474703
 30
0.0
 11
371.2309477285778
 21
324.9371300474704
 31
0.0
  0
ARC
  8
ITEM_50
 10
366.2309477285778
 20
324.9371300474704
 30
0.0
 40
5.0
 50
0.0
 51
90.0
  0
LINE
  8
ITEM_50
 10
366.7490187285777
 20
329.9102180474703
 30
0.0
 11
343.7128757285778
 21
329.9102180474703
 31
0.0
  0
ARC
  8
ITEM_50
 10
344.2309477285778
 20
324.9371300474704
 30
0.0
 40
5.0
 50
90.0
 51
180.0
  0
ARC
  8
ITEM_HILFE
 10
200.6782513798161
 20
267.4102180474703
 30
0.0
 40
57.177202
 50
139.1655517875809
 51
54.68477874508425
  0
ARC
  8
ITEM_HILFE
 10
200.6782513798161
 20
267.4102180474703
 30
0.0
 40
26.0
 50
162.4800949347509
 51
56.01057693298744
  0
ARC
  8
ITEM_50
 10
200.6782513798161
 20
267.4102180474703
 30
0.0
 40
62.5
 50
137.4203355729166
 51
50.03964306899985
  0
ARC
  8
ITEM_50
 10
200.6782513798161
 20
267.4102180474703
 30
0.0
 40
41.75
 50
146.354782274994
 51
67.23242967481554
  0
ARC
  8
ITEM_50
 10
103.6782513798223
 20
134.0042181049652
 30
0.0
 40
5.0
 50
90.0
 51
180.0
  0
ARC
  8
ITEM_50
 10
103.6782513798223
 20
112.0042181049714
 30
0.0
 40
5.0
 50
180.0
 51
270.0
  0
LINE
  8
ITEM_50
 10
103.6782513798223
 20
139.0042181049714
 30
0.0
 11
131.9282513798223
 21
139.0042181049714
 31
0.0
  0
LINE
  8
ITEM_50
 10
98.67825137982239
 20
112.0042181049714
 30
0.0
 11
98.67825137982239
 21
134.0042181049714
 31
0.0
  0
LINE
  8
ITEM_50
 10
103.6782513798223
 20
107.0042181049714
 30
0.0
 11
131.9282513798223
 21
107.0042181049714
 31
0.0
  0
LINE
  8
ITEM_50
 10
44.31811021815127
 20
340.9102180474735
 30
0.0
 11
44.31811021815127
 21
335.7467539410038
 31
0.0
  0
LINE
  8
ITEM_50
 10
85.31811021815133
 20
340.9102180474735
 30
0.0
 11
85.31811021815133
 21
335.7467539410038
 31
0.0
  0
LINE
  8
ITEM_50
 10
91.38011948247589
 20
344.9102180474735
 30
0.0
 11
81.31811021815133
 21
344.9102180474735
 31
0.0
  0
LINE
  8
ITEM_50
 10
46.81811021815133
 20
317.1882656548931
 30
0.0
 11
46.81811021815133
 21
256.9102180474735
 31
0.0
  0
LINE
  8
ITEM_50
 10
82.81811021815127
 20
317.1882656548931
 30
0.0
 11
82.81811021815127
 21
256.9102180474735
 31
0.0
  0
LINE
  8
ITEM_50
 10
44.81811021815127
 20
256.4102180474735
 30
0.0
 11
46.31811021815133
 21
256.4102180474735
 31
0.0
  0
LINE
  8
ITEM_50
 10
83.31811021815127
 20
256.4102180474735
 30
0.0
 11
84.81811021815133
 21
256.4102180474735
 31
0.0
  0
LINE
  8
ITEM_50
 10
34.81811021814814
 20
298.3441292280064
 30
0.0
 11
34.81811021814809
 21
340.9102180474735
 31
0.0
  0
LINE
  8
ITEM_50
 10
94.81811021814814
 20
298.3441292280064
 30
0.0
 11
94.81811021814814
 21
340.9102180474735
 31
0.0
  0
LINE
  8
ITEM_50
 10
192.9517540717187
 20
256.4102180474703
 30
0.0
 11
204.8893291555828
 21
256.4102180474703
 31
0.0
  0
ARC
  8
ITEM_50
 10
192.9517540717187
 20
266.4102180474703
 30
0.0
 40
10.0
 50
209.9999999999999
 51
270.0
  0
LINE
  8
ITEM_50
 10
211.6782513798224
 20
344.9102180474703
 30
0.0
 11
208.6569186889722
 21
344.9102180474703
 31
0.0
  0
LINE
  8
ITEM_50
 10
133.4404943694025
 20
336.4102180474703
 30
0.0
 11
131.6782513798224
 21
336.4102180474703
 31
0.0
  0
LINE
  8
ITEM_50
 10
131.1782513798224
 20
336.9102180474703
 30
0.0
 11
131.1782513798224
 21
344.4960044850976
 31
0.0
  0
CIRCLE
  8
ITEM_50
 10
200.6782513798161
 20
267.4102180474703
 30
0.0
 40
4.008991689075239
  0
LINE
  8
ITEM_50
 10
291.4282513798192
 20
143.5042181049712
 30
0.0
 11
187.0577799690375
 21
143.5042181049714
 31
0.0
  0
LINE
  8
ITEM_50
 10
291.4282513798193
 20
102.5042181049717
 30
0.0
 11
187.0577799690376
 21
102.5042181049715
 31
0.0
  0
ARC
  8
ITEM_50
 10
161.1782513798223
 20
123.0042181049714
 30
0.0
 40
30.0
 50
281.7197603057882
 51
310.3149091747089
  0
CIRCLE
  8
ITEM_50
 10
158.1782513798223
 20
123.0042181049715
 30
0.0
 40
30.75
  0
ARC
  8
ITEM_50
 10
161.1782513798223
 20
123.0042181049714
 30
0.0
 40
30.0
 50
49.68509082529118
 51
78.28023969421067
  0
ARC
  8
ITEM_50
 10
187.0577799690375
 20
153.5042181049714
 30
0.0
 40
10.0
 50
229.685090825291
 51
270.0
  0
ARC
  8
ITEM_50
 10
187.0577799690376
 20
92.50421810497151
 30
0.0
 40
10.0
 50
90.0
 51
130.3149091747089
  0
LINE
  8
ITEM_50
 10
138.9752567636117
 20
359.9102180474704
 30
0.0
 11
177.3812459960333
 21
359.9102180474703
 31
0.0
  0
LINE
  8
ITEM_50
 10
184.3094492263088
 20
355.9102180474703
 30
0.0
 11
188.0622259760412
 21
349.4102180474703
 31
0.0
  0
LINE
  8
ITEM_50
 10
128.2942767836036
 20
349.4102180474703
 30
0.0
 11
132.0470535333362
 21
355.9102180474704
 31
0.0
  0
LINE
  8
ITEM_50
 10
129.1603021873881
 20
347.9102180474703
 30
0.0
 11
131.1782513798224
 21
347.9102180474703
 31
0.0
  0
ARC
  8
ITEM_50
 10
129.1603021873881
 20
348.9102180474703
 30
0.0
 40
1.0
 50
150.0
 51
270.0
  0
ARC
  8
ITEM_50
 10
187.1962005722568
 20
348.9102180474703
 30
0.0
 40
1.0
 50
270.0
 51
29.99999999999986
  0
ARC
  8
ITEM_50
 10
138.9752567636117
 20
351.9102180474704
 30
0.0
 40
8.0
 50
90.0
 51
149.9999999999999
  0
ARC
  8
ITEM_50
 10
177.3812459960333
 20
351.9102180474703
 30
0.0
 40
8.0
 50
29.99999999999945
 51
89.99999999999997
  0
LINE
  8
ITEM_50
 10
132.1782513798224
 20
346.9102180474703
 30
0.0
 11
132.1782513798224
 21
345.9102180474703
 31
0.0
  0
LINE
  8
ITEM_50
 10
131.1782513798224
 20
347.9102180474703
 30
0.0
 11
185.1782513798161
 21
347.9102180474703
 31
0.0
  0
LINE
  8
ITEM_50
 10
131.3982029469769
 20
344.9102180474703
 30
0.0
 11
185.178251379816
 21
344.9102180474703
 31
0.0
  0
LINE
  8
ITEM_50
 10
185.1782513798161
 20
347.9102180474703
 30
0.0
 11
187.1962005722568
 21
347.9102180474703
 31
0.0
  0
LINE
  8
ITEM_50
 10
184.1782513798161
 20
346.9102180474704
 30
0.0
 11
184.178251379816
 21
345.9102180474704
 31
0.0
  0
LINE
  8
ITEM_50
 10
185.178251379816
 20
344.9102180474703
 30
0.0
 11
218.6784781093007
 21
344.9102180474703
 31
0.0
  0
ARC
  8
ITEM_50
 10
131.1782513798224
 20
345.9102180474703
 30
0.0
 40
1.0
 50
289.4712206344929
 51
0.0000000000005471
  0
ARC
  8
ITEM_50
 10
131.1782513798224
 20
346.9102180474703
 30
0.0
 40
1.0
 50
0.0000000000008142
 51
90.0
  0
ARC
  8
ITEM_50
 10
185.1782513798161
 20
346.9102180474703
 30
0.0
 40
1.0
 50
90.0
 51
179.9999999999989
  0
ARC
  8
ITEM_50
 10
185.178251379816
 20
345.9102180474703
 30
0.0
 40
1.0
 50
179.9999999999983
 51
270.0
  0
LINE
  8
ITEM_50
 10
145.1782513798192
 20
362.1102180474704
 30
0.0
 11
145.1782513798192
 21
359.9102180474704
 31
0.0
  0
LINE
  8
ITEM_50
 10
171.1782513798192
 20
362.1102180474704
 30
0.0
 11
171.1782513798192
 21
359.9102180474703
 31
0.0
  0
LINE
  8
ITEM_50
 10
145.1782513798192
 20
362.1102180474704
 30
0.0
 11
171.1782513798192
 21
362.1102180474704
 31
0.0
  0
LINE
  8
ITEM_HILFE
 10
183.3490669236711
 20
270.8942275330427
 30
0.0
 11
183.3490669236711
 21
338.4102180474703
 31
0.0
  0
LINE
  8
ITEM_HILFE
 10
218.6784781093007
 20
342.4102180474703
 30
0.0
 11
187.3490669236711
 21
342.4102180474703
 31
0.0
  0
CIRCLE
  8
ITEM_50
 10
158.1782513798223
 20
123.0042181049715
 30
0.0
 40
13.0
  0
ARC
  8
ITEM_50
 10
544.0419094299551
 20
525.7788804200405
 30
0.0
 40
445.3213970890125
 50
206.1244264330615
 51
214.8341172072648
  0
LINE
  8
ITEM_50
 10
178.5179973419798
 20
271.4102180474673
 30
0.0
 11
184.2915000338743
 21
261.4102180474703
 31
0.0
  0
ARC
  8
ITEM_50
 10
131.6782513798224
 20
336.9102180474703
 30
0.0
 40
0.5
 50
180.0
 51
270.0
  0
ARC
  8
ITEM_50
 10
133.4404943694025
 20
324.4102180474703
 30
0.0
 40
12.0
 50
26.12442643337968
 51
90.00000000000014
  0
LINE
  8
ITEM_50
 10
363.85739771914
 20
336.4102180474673
 30
0.0
 11
346.775580645141
 21
336.4102180474673
 31
0.0
  0
LINE
  8
ITEM_50
 10
384.8260865655162
 20
298.3441292280062
 30
0.0
 11
384.8260865655161
 21
340.9102180474735
 31
0.0
  0
LINE
  8
ITEM_50
 10
325.8072097466221
 20
298.3441292280062
 30
0.0
 11
325.8072097466221
 21
340.9102180474735
 31
0.0
  0
LINE
  8
ITEM_50
 10
335.3164891821468
 20
256.4102180474735
 30
0.0
 11
336.8164891821468
 21
256.4102180474735
 31
0.0
  0
LINE
  8
ITEM_50
 10
328.9513769925486
 20
344.9102180474735
 30
0.0
 11
381.6817222297114
 21
344.9102180474735
 31
0.0
  0
LINE
  8
ITEM_50
 10
334.8164891821469
 20
265.9402477603414
 30
0.0
 11
334.8164891821468
 21
256.9102180474735
 31
0.0
  0
LINE
  8
ITEM_50
 10
333.9985536876681
 20
326.1764660885943
 30
0.0
 11
332.9149464314517
 21
324.1166963268292
 31
0.0
  0
LINE
  8
ITEM_50
 10
332.9149464314517
 20
324.1166963268292
 30
0.0
 11
331.9788636093131
 21
322.201251600897
 31
0.0
  0
LINE
  8
ITEM_50
 10
331.9788636093131
 20
322.201251600897
 30
0.0
 11
331.1650106578693
 21
320.4028640103492
 31
0.0
  0
LINE
  8
ITEM_50
 10
331.1650106578693
 20
320.4028640103492
 30
0.0
 11
330.4480930137374
 21
318.6942656547374
 31
0.0
  0
LINE
  8
ITEM_50
 10
330.4480930137374
 20
318.6942656547374
 30
0.0
 11
329.8061505762683
 21
317.0524333864244
 31
0.0
  0
LINE
  8
ITEM_50
 10
329.8061505762683
 20
317.0524333864244
 30
0.0
 11
329.2305610957483
 21
315.4713230690173
 31
0.0
  0
LINE
  8
ITEM_50
 10
329.2305610957483
 20
315.4713230690173
 30
0.0
 11
328.7160367851979
 21
313.949135318934
 31
0.0
  0
LINE
  8
ITEM_50
 10
328.7160367851979
 20
313.949135318934
 30
0.0
 11
328.2572898576373
 21
312.4840707525928
 31
0.0
  0
LINE
  8
ITEM_50
 10
328.2572898576373
 20
312.4840707525928
 30
0.0
 11
327.8490325260869
 21
311.0743299864117
 31
0.0
  0
LINE
  8
ITEM_50
 10
327.8490325260869
 20
311.0743299864117
 30
0.0
 11
327.4859770035671
 21
309.7181136368087
 31
0.0
  0
LINE
  8
ITEM_50
 10
327.4859770035671
 20
309.7181136368087
 30
0.0
 11
327.1628355030981
 21
308.4136223202021
 31
0.0
  0
LINE
  8
ITEM_50
 10
327.1628355030981
 20
308.4136223202021
 30
0.0
 11
326.8743202377004
 21
307.1590566530101
 31
0.0
  0
LINE
  8
ITEM_50
 10
326.8743202377004
 20
307.1590566530101
 30
0.0
 11
326.616371939158
 21
305.9518003347008
 31
0.0
  0
LINE
  8
ITEM_50
 10
326.616371939158
 20
305.9518003347008
 30
0.0
 11
326.3898454143107
 21
304.7859693969437
 31
0.0
  0
LINE
  8
ITEM_50
 10
326.3898454143107
 20
304.7859693969437
 30
0.0
 11
326.1968239887621
 21
303.6548629544589
 31
0.0
  0
LINE
  8
ITEM_50
 10
326.1968239887621
 20
303.6548629544589
 30
0.0
 11
326.0393909881156
 21
302.5517801219662
 31
0.0
  0
LINE
  8
ITEM_50
 10
326.0393909881156
 20
302.5517801219662
 30
0.0
 11
325.9196297379749
 21
301.4700200141853
 31
0.0
  0
LINE
  8
ITEM_50
 10
325.9196297379749
 20
301.4700200141853
 30
0.0
 11
325.8396235639434
 21
300.4028817458361
 31
0.0
  0
LINE
  8
ITEM_50
 10
325.8396235639434
 20
300.4028817458361
 30
0.0
 11
325.8014557916245
 21
299.3436644316383
 31
0.0
  0
LINE
  8
ITEM_50
 10
325.8014557916245
 20
299.3436644316383
 30
0.0
 11
325.8072097466221
 21
298.2856671863119
 31
0.0
  0
LINE
  8
ITEM_50
 10
325.8072097466221
 20
298.2856671863119
 30
0.0
 11
325.8585284263017
 21
297.2212291478003
 31
0.0
  0
LINE
  8
ITEM_50
 10
325.8585284263017
 20
297.2212291478003
 30
0.0
 11
325.9552935150784
 21
296.138849546942
 31
0.0
  0
LINE
  8
ITEM_50
 10
325.9552935150784
 20
296.138849546942
 30
0.0
 11
326.0969463691296
 21
295.0260676377994
 31
0.0
  0
LINE
  8
ITEM_50
 10
326.0969463691296
 20
295.0260676377994
 30
0.0
 11
326.2829283446325
 21
293.8704226744343
 31
0.0
  0
LINE
  8
ITEM_50
 10
326.2829283446325
 20
293.8704226744343
 30
0.0
 11
326.5126807977642
 21
292.6594539109092
 31
0.0
  0
LINE
  8
ITEM_50
 10
326.5126807977642
 20
292.6594539109092
 30
0.0
 11
326.7856450847021
 21
291.3807006012862
 31
0.0
  0
LINE
  8
ITEM_50
 10
326.7856450847021
 20
291.3807006012862
 30
0.0
 11
327.1012625616237
 21
290.0217019996274
 31
0.0
  0
LINE
  8
ITEM_50
 10
327.1012625616237
 20
290.0217019996274
 30
0.0
 11
327.4589745847059
 21
288.5699973599949
 31
0.0
  0
LINE
  8
ITEM_50
 10
327.4589745847059
 20
288.5699973599949
 30
0.0
 11
327.8641745648328
 21
287.0117325080999
 31
0.0
  0
LINE
  8
ITEM_50
 10
327.8641745648328
 20
287.0117325080999
 30
0.0
 11
328.3460641317138
 21
285.3274795562475
 31
0.0
  0
LINE
  8
ITEM_50
 10
328.3460641317138
 20
285.3274795562475
 30
0.0
 11
328.9397969697654
 21
283.4964171883923
 31
0.0
  0
LINE
  8
ITEM_50
 10
328.9397969697654
 20
283.4964171883923
 30
0.0
 11
329.6805267634035
 21
281.4977240884882
 31
0.0
  0
LINE
  8
ITEM_50
 10
329.6805267634035
 20
281.4977240884882
 30
0.0
 11
330.6034071970446
 21
279.3105789404894
 31
0.0
  0
LINE
  8
ITEM_50
 10
330.6034071970446
 20
279.3105789404894
 30
0.0
 11
332.876527145866
 21
274.5329789180715
 31
0.0
  0
ARC
  8
ITEM_50
 10
346.775580645141
 20
324.4102180474673
 30
0.0
 40
12.0
 50
90.0
 51
150.6171928900627
  0
LINE
  8
ITEM_50
 10
336.3192477015761
 20
330.2979256975904
 30
0.0
 11
333.9985536876681
 21
326.1764660885943
 31
0.0
  0
ARC
  8
ITEM_50
 10
314.8164891821469
 20
265.9402477603415
 30
0.0
 40
20.0
 50
359.9999999999997
 51
25.44449740693216
  0
LINE
  8
ITEM_50
 10
335.1290000266315
 20
275.6176461897507
 30
0.0
 11
335.1340318913309
 21
275.6070703127877
 31
0.0
  0
ARC
  8
ITEM_50
 10
314.8164891821469
 20
265.9402477603415
 30
0.0
 40
22.5
 50
359.9999999999997
 51
25.44449740693216
  0
LINE
  8
ITEM_50
 10
331.540455953812
 20
282.2343605719664
 30
0.0
 11
332.0998306515904
 21
280.9086919245855
 31
0.0
  0
LINE
  8
ITEM_50
 10
330.8295231862922
 20
284.1526530844879
 30
0.0
 11
331.5404559538121
 21
282.2343605719662
 31
0.0
  0
LINE
  8
ITEM_50
 10
330.2593103862082
 20
285.9111800396916
 30
0.0
 11
330.8295231862919
 21
284.1526530844886
 31
0.0
  0
LINE
  8
ITEM_50
 10
329.7936956740495
 20
287.5385507222628
 30
0.0
 11
330.2593103862084
 21
285.9111800396909
 31
0.0
  0
LINE
  8
ITEM_50
 10
329.3978263330977
 20
289.060933027797
 30
0.0
 11
329.7936956740494
 21
287.538550722263
 31
0.0
  0
LINE
  8
ITEM_50
 10
329.0463831460319
 20
290.4871968162904
 30
0.0
 11
329.397826333099
 21
289.0609330277922
 31
0.0
  0
LINE
  8
ITEM_50
 10
328.7337966402213
 20
291.8331445389496
 30
0.0
 11
329.0463831460316
 21
290.4871968162913
 31
0.0
  0
LINE
  8
ITEM_50
 10
328.7337966402213
 20
291.8331445389496
 30
0.0
 11
329.0463831460316
 21
290.4871968162913
 31
0.0
  0
LINE
  8
ITEM_50
 10
328.253082802416
 20
294.2157800665354
 30
0.0
 11
328.4733768181932
 21
293.0546644037369
 31
0.0
  0
LINE
  8
ITEM_50
 10
328.0715392551194
 20
295.3438457594475
 30
0.0
 11
328.2530828024164
 21
294.2157800665336
 31
0.0
  0
LINE
  8
ITEM_50
 10
328.4733768181934
 20
293.0546644037362
 30
0.0
 11
328.7415796888628
 21
291.7982168575525
 31
0.0
  0
LINE
  8
ITEM_50
 10
327.9392835175794
 20
296.3914038380878
 30
0.0
 11
328.0809363716306
 21
295.278621928945
 31
0.0
  0
LINE
  8
ITEM_50
 10
327.8505836002644
 20
297.3993195290343
 30
0.0
 11
327.9473486890412
 21
296.3169399281761
 31
0.0
  0
LINE
  8
ITEM_50
 10
327.8069477153036
 20
298.3392861783169
 30
0.0
 11
327.8562080742754
 21
297.3175412657891
 31
0.0
  0
LINE
  8
ITEM_50
 10
327.8014262146181
 20
299.3545413406861
 30
0.0
 11
327.8069477153036
 21
298.3392861783157
 31
0.0
  0
LINE
  8
ITEM_50
 10
327.9113834547871
 20
301.2851618657931
 30
0.0
 11
327.8340262524921
 21
300.2533561095416
 31
0.0
  0
LINE
  8
ITEM_50
 10
328.176760717217
 20
303.3722845559298
 30
0.0
 11
328.0237791111064
 21
302.3003912254667
 31
0.0
  0
LINE
  8
ITEM_50
 10
327.8383263822702
 20
300.3308606099649
 30
0.0
 11
327.8001586099513
 21
299.2716432957671
 31
0.0
  0
LINE
  8
ITEM_50
 10
328.0237791111065
 20
302.3003912254679
 30
0.0
 11
327.9113834547872
 21
301.285161865794
 31
0.0
  0
LINE
  8
ITEM_50
 10
328.5761088752143
 20
305.5520796692736
 30
0.0
 11
328.3531275499715
 21
304.4044942918641
 31
0.0
  0
LINE
  8
ITEM_50
 10
328.3613455285463
 20
304.4495361947041
 30
0.0
 11
328.1683241029977
 21
303.3184297522193
 31
0.0
  0
LINE
  8
ITEM_50
 10
329.1119576989933
 20
307.9653783403554
 30
0.0
 11
328.8234424335955
 21
306.7108126731633
 31
0.0
  0
LINE
  8
ITEM_50
 10
328.8301734892926
 20
306.7411594668074
 30
0.0
 11
328.5761088752145
 21
305.5520796692746
 31
0.0
  0
LINE
  8
ITEM_50
 10
329.4273014559815
 20
309.2372192924277
 30
0.0
 11
329.1041599555126
 21
307.9327279758211
 31
0.0
  0
LINE
  8
ITEM_50
 10
332.1452418886157
 20
316.1695283742146
 30
0.0
 11
331.5797389756606
 21
314.6161252623487
 31
0.0
  0
LINE
  8
ITEM_50
 10
332.7652642696764
 20
317.7552978963468
 30
0.0
 11
332.1452418886159
 21
316.1695283742152
 31
0.0
  0
LINE
  8
ITEM_50
 10
333.4569088118319
 20
319.4036639772596
 30
0.0
 11
332.7652642696768
 21
317.7552978963476
 31
0.0
  0
LINE
  8
ITEM_50
 10
334.2412364531322
 20
321.1368088832721
 30
0.0
 11
333.4569088118316
 21
319.4036639772588
 31
0.0
  0
LINE
  8
ITEM_50
 10
335.1610724095559
 20
323.01900871622
 30
0.0
 11
334.2412364531323
 21
321.1368088832724
 31
0.0
  0
LINE
  8
ITEM_50
 10
336.1461727228162
 20
324.8891598556078
 30
0.0
 11
335.1274553770799
 21
322.9527357753004
 31
0.0
  0
ARC
  8
ITEM_50
 10
347.3721103326286
 20
325.6489078627155
 30
0.0
 40
10.0
 50
109.5319414579348
 51
158.5006945548607
  0
POLYLINE
  8
ITEM_50
 66
     1
 10
0.0
 20
0.0
 30
0.0
  0
VERTEX
  8
ITEM_50
 10
338.0854926719467
 20
329.3581843992266
 30
0.0
  0
VERTEX
  8
ITEM_50
 10
336.1461727228162
 20
324.8891598556077
 30
0.0
  0
SEQEND
  8
ITEM_50
  0
POLYLINE
  8
ITEM_50
 66
     1
 10
0.0
 20
0.0
 30
0.0
 70
     4
 75
     6
  0
VERTEX
  8
ITEM_50
 10
329.4253033495973
 20
309.2291531281496
 30
0.0
 70
    16
  0
VERTEX
  8
ITEM_50
 10
329.4253033495973
 20
309.2291531281496
 30
0.0
 70
     8
  0
VERTEX
  8
ITEM_50
 10
329.6281415871485
 20
309.7734273500482
 30
0.0
 70
     8
  0
VERTEX
  8
ITEM_50
 10
329.7858087702043
 20
310.1943000637066
 30
0.0
 70
     8
  0
VERTEX
  8
ITEM_50
 10
329.9105065933512
 20
310.5224173445044
 30
0.0
 70
     8
  0
VERTEX
  8
ITEM_50
 10
330.0144367511757
 20
310.7884252678209
 30
0.0
 70
     8
  0
VERTEX
  8
ITEM_50
 10
330.1098009382644
 20
311.0229699090355
 30
0.0
 70
     8
  0
VERTEX
  8
ITEM_50
 10
330.2088008492037
 20
311.2566973435277
 30
0.0
 70
     8
  0
VERTEX
  8
ITEM_50
 10
330.3236381785803
 20
311.5202536466771
 30
0.0
 70
     8
  0
VERTEX
  8
ITEM_50
 10
330.4665146209806
 20
311.844284893863
 30
0.0
 70
     8
  0
VERTEX
  8
ITEM_50
 10
330.0372793398046
 20
310.8723273534258
 30
0.0
 70
    16
  0
VERTEX
  8
ITEM_50
 10
330.4665146209806
 20
311.844284893863
 30
0.0
 70
    16
  0
SEQEND
  8
ITEM_50
  0
LINE
  8
ITEM_50
 10
337.3164891821468
 20
327.5860706891681
 30
0.0
 11
337.3164891821468
 21
256.9102180474735
 31
0.0
  0
POLYLINE
  8
ITEM_50
 66
     1
 10
0.0
 20
0.0
 30
0.0
  0
VERTEX
  8
ITEM_50
 10
335.1290000266314
 20
275.6176461897508
 30
0.0
  0
VERTEX
  8
ITEM_50
 10
332.0998306515905
 20
280.9086919245853
 30
0.0
  0
SEQEND
  8
ITEM_50
  0
POLYLINE
  8
ITEM_50
 66
     1
 10
0.0
 20
0.0
 30
0.0
  0
VERTEX
  8
ITEM_50
 10
330.4663121022412
 20
311.8438255991142
 30
0.0
  0
VERTEX
  8
ITEM_50
 10
330.5210125172052
 20
311.9691743406824
 30
0.0
  0
SEQEND
  8
ITEM_50
  0
POLYLINE
  8
ITEM_50
 66
     1
 10
0.0
 20
0.0
 30
0.0
 75
     6
  0
VERTEX
  8
ITEM_50
 10
331.5797389756606
 20
314.6161252623487
 30
0.0
  0
VERTEX
  8
ITEM_50
 10
331.2055624187957
 20
313.6805253799732
 30
0.0
  0
VERTEX
  8
ITEM_50
 10
330.911868435414
 20
312.9462040737349
 30
0.0
  0
VERTEX
  8
ITEM_50
 10
330.6734331483317
 20
312.3501272892989
 30
0.0
  0
VERTEX
  8
ITEM_50
 10
330.5210125172059
 20
311.969174340684
 30
0.0
  0
SEQEND
  8
ITEM_50
  0
POLYLINE
  8
ITEM_50
 66
     1
 10
0.0
 20
0.0
 30
0.0
 75
     6
  0
VERTEX
  8
ITEM_50
 10
344.0287871874758
 20
335.0734603904001
 30
0.0
  0
VERTEX
  8
ITEM_50
 10
344.1513746869557
 20
335.1246971414187
 30
0.0
  0
VERTEX
  8
ITEM_50
 10
344.6075701768741
 20
335.3106040854386
 30
0.0
  0
VERTEX
  8
ITEM_50
 10
344.9849540250577
 20
335.4591412155341
 30
0.0
  0
VERTEX
  8
ITEM_50
 10
345.2984773708389
 20
335.5768926904178
 30
0.0
  0
VERTEX
  8
ITEM_50
 10
345.56309135355
 20
335.6704426688021
 30
0.0
  0
VERTEX
  8
ITEM_50
 10
345.7937471125234
 20
335.7463753093995
 30
0.0
  0
VERTEX
  8
ITEM_50
 10
346.0053957870914
 20
335.8112747709226
 30
0.0
  0
VERTEX
  8
ITEM_50
 10
346.2142334783577
 20
335.87111357729
 30
0.0
  0
VERTEX
  8
ITEM_50
 10
346.4414361345117
 20
335.9294177132447
 30
0.0
  0
VERTEX
  8
ITEM_50
 10
346.709424665514
 20
335.9891015287363
 30
0.0
  0
VERTEX
  8
ITEM_50
 10
347.0406199813251
 20
336.0530793737136
 30
0.0
  0
VERTEX
  8
ITEM_50
 10
347.4574429919057
 20
336.1242655981261
 30
0.0
  0
VERTEX
  8
ITEM_50
 10
347.9823146072166
 20
336.2055745519231
 30
0.0
  0
VERTEX
  8
ITEM_50
 10
348.6376557372183
 20
336.2999205850537
 30
0.0
  0
VERTEX
  8
ITEM_50
 10
349.4458872918714
 20
336.4102180474673
 30
0.0
  0
SEQEND
  8
ITEM_50
  0
POLYLINE
  8
ITEM_50
 66
     1
 10
0.0
 20
0.0
 30
0.0
 75
     6
  0
VERTEX
  8
ITEM_50
 10
366.6041911768053
 20
335.0734603904001
 30
0.0
  0
VERTEX
  8
ITEM_50
 10
366.4816036773254
 20
335.1246971414187
 30
0.0
  0
VERTEX
  8
ITEM_50
 10
366.025408187407
 20
335.3106040854386
 30
0.0
  0
VERTEX
  8
ITEM_50
 10
365.6480243392234
 20
335.4591412155341
 30
0.0
  0
VERTEX
  8
ITEM_50
 10
365.3345009934421
 20
335.5768926904178
 30
0.0
  0
VERTEX
  8
ITEM_50
 10
365.0698870107311
 20
335.6704426688021
 30
0.0
  0
VERTEX
  8
ITEM_50
 10
364.8392312517577
 20
335.7463753093995
 30
0.0
  0
VERTEX
  8
ITEM_50
 10
364.6275825771897
 20
335.8112747709226
 30
0.0
  0
VERTEX
  8
ITEM_50
 10
364.4187448859233
 20
335.87111357729
 30
0.0
  0
VERTEX
  8
ITEM_50
 10
364.1915422297694
 20
335.9294177132447
 30
0.0
  0
VERTEX
  8
ITEM_50
 10
363.9235536987671
 20
335.9891015287363
 30
0.0
  0
VERTEX
  8
ITEM_50
 10
363.5923583829559
 20
336.0530793737136
 30
0.0
  0
VERTEX
  8
ITEM_50
 10
363.1755353723753
 20
336.1242655981261
 30
0.0
  0
VERTEX
  8
ITEM_50
 10
362.6506637570644
 20
336.2055745519231
 30
0.0
  0
VERTEX
  8
ITEM_50
 10
361.9953226270628
 20
336.2999205850537
 30
0.0
  0
VERTEX
  8
ITEM_50
 10
361.1870910724097
 20
336.4102180474673
 30
0.0
  0
SEQEND
  8
ITEM_50
  0
POLYLINE
  8
ITEM_50
 66
     1
 10
0.0
 20
0.0
 30
0.0
 75
     6
  0
VERTEX
  8
ITEM_50
 10
379.0532393886204
 20
314.6161252623487
 30
0.0
  0
VERTEX
  8
ITEM_50
 10
379.4274159454853
 20
313.6805253799732
 30
0.0
  0
VERTEX
  8
ITEM_50
 10
379.7211099288671
 20
312.9462040737349
 30
0.0
  0
VERTEX
  8
ITEM_50
 10
379.9595452159493
 20
312.3501272892989
 30
0.0
  0
VERTEX
  8
ITEM_50
 10
380.1119658470752
 20
311.969174340684
 30
0.0
  0
SEQEND
  8
ITEM_50
  0
POLYLINE
  8
ITEM_50
 66
     1
 10
0.0
 20
0.0
 30
0.0
  0
VERTEX
  8
ITEM_50
 10
380.1666662620398
 20
311.8438255991142
 30
0.0
  0
VERTEX
  8
ITEM_50
 10
380.1119658470759
 20
311.9691743406824
 30
0.0
  0
SEQEND
  8
ITEM_50
  0
POLYLINE
  8
ITEM_50
 66
     1
 10
0.0
 20
0.0
 30
0.0
  0
VERTEX
  8
ITEM_50
 10
375.5039783376496
 20
275.6176461897508
 30
0.0
  0
VERTEX
  8
ITEM_50
 10
378.5331477126905
 20
280.9086919245853
 30
0.0
  0
SEQEND
  8
ITEM_50
  0
LINE
  8
ITEM_50
 10
373.3164891821342
 20
327.5860706891681
 30
0.0
 11
373.3164891821343
 21
256.9102180474735
 31
0.0
  0
POLYLINE
  8
ITEM_50
 66
     1
 10
0.0
 20
0.0
 30
0.0
 70
     4
 75
     6
  0
VERTEX
  8
ITEM_50
 10
381.2076750146837
 20
309.2291531281496
 30
0.0
 70
    16
  0
VERTEX
  8
ITEM_50
 10
381.2076750146837
 20
309.2291531281496
 30
0.0
 70
     8
  0
VERTEX
  8
ITEM_50
 10
381.0048367771325
 20
309.7734273500482
 30
0.0
 70
     8
  0
VERTEX
  8
ITEM_50
 10
380.8471695940768
 20
310.1943000637066
 30
0.0
 70
     8
  0
VERTEX
  8
ITEM_50
 10
380.7224717709299
 20
310.5224173445044
 30
0.0
 70
     8
  0
VERTEX
  8
ITEM_50
 10
380.6185416131054
 20
310.7884252678209
 30
0.0
 70
     8
  0
VERTEX
  8
ITEM_50
 10
380.5231774260167
 20
311.0229699090355
 30
0.0
 70
     8
  0
VERTEX
  8
ITEM_50
 10
380.4241775150773
 20
311.2566973435277
 30
0.0
 70
     8
  0
VERTEX
  8
ITEM_50
 10
380.3093401857007
 20
311.5202536466771
 30
0.0
 70
     8
  0
VERTEX
  8
ITEM_50
 10
380.1664637433004
 20
311.844284893863
 30
0.0
 70
     8
  0
VERTEX
  8
ITEM_50
 10
380.5956990244765
 20
310.8723273534258
 30
0.0
 70
    16
  0
VERTEX
  8
ITEM_50
 10
380.1664637433004
 20
311.844284893863
 30
0.0
 70
    16
  0
SEQEND
  8
ITEM_50
  0
POLYLINE
  8
ITEM_50
 66
     1
 10
0.0
 20
0.0
 30
0.0
  0
VERTEX
  8
ITEM_50
 10
372.5474856923344
 20
329.3581843992266
 30
0.0
  0
VERTEX
  8
ITEM_50
 10
374.4868056414649
 20
324.8891598556077
 30
0.0
  0
SEQEND
  8
ITEM_50
  0
ARC
  8
ITEM_50
 10
363.2608680316525
 20
325.6489078627155
 30
0.0
 40
10.0
 50
21.49930544513909
 51
70.46805854206513
  0
LINE
  8
ITEM_50
 10
374.4868056414648
 20
324.8891598556078
 30
0.0
 11
375.5055229872012
 21
322.9527357753004
 31
0.0
  0
LINE
  8
ITEM_50
 10
375.4719059547251
 20
323.01900871622
 30
0.0
 11
376.3917419111487
 21
321.1368088832724
 31
0.0
  0
LINE
  8
ITEM_50
 10
376.3917419111488
 20
321.1368088832721
 30
0.0
 11
377.1760695524494
 21
319.4036639772588
 31
0.0
  0
LINE
  8
ITEM_50
 10
377.1760695524491
 20
319.4036639772596
 30
0.0
 11
377.8677140946043
 21
317.7552978963476
 31
0.0
  0
LINE
  8
ITEM_50
 10
377.8677140946046
 20
317.7552978963468
 30
0.0
 11
378.4877364756652
 21
316.1695283742152
 31
0.0
  0
LINE
  8
ITEM_50
 10
378.4877364756654
 20
316.1695283742146
 30
0.0
 11
379.0532393886204
 21
314.6161252623487
 31
0.0
  0
LINE
  8
ITEM_50
 10
381.2056769082995
 20
309.2372192924277
 30
0.0
 11
381.5288184087685
 21
307.9327279758211
 31
0.0
  0
LINE
  8
ITEM_50
 10
381.8028048749884
 20
306.7411594668074
 30
0.0
 11
382.0568694890666
 21
305.5520796692746
 31
0.0
  0
LINE
  8
ITEM_50
 10
381.5210206652878
 20
307.9653783403554
 30
0.0
 11
381.8095359306855
 21
306.7108126731633
 31
0.0
  0
LINE
  8
ITEM_50
 10
382.2716328357348
 20
304.4495361947041
 30
0.0
 11
382.4646542612834
 21
303.3184297522193
 31
0.0
  0
LINE
  8
ITEM_50
 10
382.0568694890667
 20
305.5520796692736
 30
0.0
 11
382.2798508143096
 21
304.4044942918641
 31
0.0
  0
LINE
  8
ITEM_50
 10
382.6091992531745
 20
302.3003912254679
 30
0.0
 11
382.7215949094938
 21
301.285161865794
 31
0.0
  0
LINE
  8
ITEM_50
 10
382.7946519820109
 20
300.3308606099649
 30
0.0
 11
382.8328197543297
 21
299.2716432957671
 31
0.0
  0
LINE
  8
ITEM_50
 10
382.456217647064
 20
303.3722845559298
 30
0.0
 11
382.6091992531746
 21
302.3003912254667
 31
0.0
  0
LINE
  8
ITEM_50
 10
382.7215949094939
 20
301.2851618657931
 30
0.0
 11
382.7989521117889
 21
300.2533561095416
 31
0.0
  0
LINE
  8
ITEM_50
 10
382.8315521496629
 20
299.3545413406861
 30
0.0
 11
382.8260306489775
 21
298.3392861783157
 31
0.0
  0
LINE
  8
ITEM_50
 10
382.8260306489775
 20
298.3392861783169
 30
0.0
 11
382.7767702900056
 21
297.3175412657891
 31
0.0
  0
LINE
  8
ITEM_50
 10
382.7823947640166
 20
297.3993195290343
 30
0.0
 11
382.6856296752399
 21
296.3169399281761
 31
0.0
  0
LINE
  8
ITEM_50
 10
382.6936948467017
 20
296.3914038380878
 30
0.0
 11
382.5520419926505
 21
295.278621928945
 31
0.0
  0
LINE
  8
ITEM_50
 10
382.1596015460877
 20
293.0546644037362
 30
0.0
 11
381.8913986754182
 21
291.7982168575525
 31
0.0
  0
LINE
  8
ITEM_50
 10
382.5614391091616
 20
295.3438457594475
 30
0.0
 11
382.3798955618647
 21
294.2157800665336
 31
0.0
  0
LINE
  8
ITEM_50
 10
382.379895561865
 20
294.2157800665354
 30
0.0
 11
382.1596015460878
 21
293.0546644037369
 31
0.0
  0
LINE
  8
ITEM_50
 10
381.8991817240598
 20
291.8331445389496
 30
0.0
 11
381.5865952182494
 21
290.4871968162913
 31
0.0
  0
LINE
  8
ITEM_50
 10
381.8991817240598
 20
291.8331445389496
 30
0.0
 11
381.5865952182494
 21
290.4871968162913
 31
0.0
  0
LINE
  8
ITEM_50
 10
381.5865952182492
 20
290.4871968162904
 30
0.0
 11
381.2351520311821
 21
289.0609330277922
 31
0.0
  0
LINE
  8
ITEM_50
 10
381.2351520311833
 20
289.060933027797
 30
0.0
 11
380.8392826902316
 21
287.538550722263
 31
0.0
  0
LINE
  8
ITEM_50
 10
380.8392826902316
 20
287.5385507222628
 30
0.0
 11
380.3736679780726
 21
285.9111800396909
 31
0.0
  0
LINE
  8
ITEM_50
 10
380.3736679780728
 20
285.9111800396916
 30
0.0
 11
379.8034551779891
 21
284.1526530844886
 31
0.0
  0
LINE
  8
ITEM_50
 10
379.8034551779888
 20
284.1526530844879
 30
0.0
 11
379.0925224104689
 21
282.2343605719662
 31
0.0
  0
LINE
  8
ITEM_50
 10
379.092522410469
 20
282.2343605719664
 30
0.0
 11
378.5331477126907
 21
280.9086919245855
 31
0.0
  0
ARC
  8
ITEM_50
 10
395.8164891821342
 20
265.9402477603415
 30
0.0
 40
22.5
 50
154.5555025930725
 51
180.0000000000001
  0
LINE
  8
ITEM_50
 10
375.5039783376496
 20
275.6176461897507
 30
0.0
 11
375.4989464729501
 21
275.6070703127877
 31
0.0
  0
ARC
  8
ITEM_50
 10
395.8164891821342
 20
265.9402477603415
 30
0.0
 40
20.0
 50
154.5555025930725
 51
180.0000000000001
  0
LINE
  8
ITEM_50
 10
374.3137306627049
 20
330.2979256975904
 30
0.0
 11
376.634424676613
 21
326.1764660885943
 31
0.0
  0
ARC
  8
ITEM_50
 10
363.85739771914
 20
324.4102180474673
 30
0.0
 40
12.0
 50
29.38280710993725
 51
90.0
  0
LINE
  8
ITEM_50
 10
380.0295711672364
 20
279.3105789404894
 30
0.0
 11
377.756451218415
 21
274.5329789180715
 31
0.0
  0
LINE
  8
ITEM_50
 10
380.9524516008775
 20
281.4977240884882
 30
0.0
 11
380.0295711672364
 21
279.3105789404894
 31
0.0
  0
LINE
  8
ITEM_50
 10
381.6931813945157
 20
283.4964171883923
 30
0.0
 11
380.9524516008775
 21
281.4977240884882
 31
0.0
  0
LINE
  8
ITEM_50
 10
382.2869142325672
 20
285.3274795562475
 30
0.0
 11
381.6931813945157
 21
283.4964171883923
 31
0.0
  0
LINE
  8
ITEM_50
 10
382.7688037994483
 20
287.0117325080999
 30
0.0
 11
382.2869142325672
 21
285.3274795562475
 31
0.0
  0
LINE
  8
ITEM_50
 10
383.1740037795751
 20
288.5699973599949
 30
0.0
 11
382.7688037994483
 21
287.0117325080999
 31
0.0
  0
LINE
  8
ITEM_50
 10
383.5317158026574
 20
290.0217019996274
 30
0.0
 11
383.1740037795751
 21
288.5699973599949
 31
0.0
  0
LINE
  8
ITEM_50
 10
383.8473332795789
 20
291.3807006012862
 30
0.0
 11
383.5317158026574
 21
290.0217019996274
 31
0.0
  0
LINE
  8
ITEM_50
 10
384.1202975665169
 20
292.6594539109092
 30
0.0
 11
383.8473332795789
 21
291.3807006012862
 31
0.0
  0
LINE
  8
ITEM_50
 10
384.3500500196486
 20
293.8704226744343
 30
0.0
 11
384.1202975665169
 21
292.6594539109092
 31
0.0
  0
LINE
  8
ITEM_50
 10
384.5360319951515
 20
295.0260676377994
 30
0.0
 11
384.3500500196486
 21
293.8704226744343
 31
0.0
  0
LINE
  8
ITEM_50
 10
384.6776848492027
 20
296.138849546942
 30
0.0
 11
384.5360319951515
 21
295.0260676377994
 31
0.0
  0
LINE
  8
ITEM_50
 10
384.7744499379794
 20
297.2212291478003
 30
0.0
 11
384.6776848492027
 21
296.138849546942
 31
0.0
  0
LINE
  8
ITEM_50
 10
384.825768617659
 20
298.2856671863119
 30
0.0
 11
384.7744499379794
 21
297.2212291478003
 31
0.0
  0
LINE
  8
ITEM_50
 10
384.8315225726566
 20
299.3436644316383
 30
0.0
 11
384.825768617659
 21
298.2856671863119
 31
0.0
  0
LINE
  8
ITEM_50
 10
384.7933548003377
 20
300.4028817458361
 30
0.0
 11
384.8315225726566
 21
299.3436644316383
 31
0.0
  0
LINE
  8
ITEM_50
 10
384.7133486263062
 20
301.4700200141853
 30
0.0
 11
384.7933548003377
 21
300.4028817458361
 31
0.0
  0
LINE
  8
ITEM_50
 10
384.5935873761654
 20
302.5517801219662
 30
0.0
 11
384.7133486263062
 21
301.4700200141853
 31
0.0
  0
LINE
  8
ITEM_50
 10
384.4361543755189
 20
303.6548629544589
 30
0.0
 11
384.5935873761654
 21
302.5517801219662
 31
0.0
  0
LINE
  8
ITEM_50
 10
384.2431329499703
 20
304.7859693969437
 30
0.0
 11
384.4361543755189
 21
303.6548629544589
 31
0.0
  0
LINE
  8
ITEM_50
 10
384.016606425123
 20
305.9518003347008
 30
0.0
 11
384.2431329499703
 21
304.7859693969437
 31
0.0
  0
LINE
  8
ITEM_50
 10
383.7586581265807
 20
307.1590566530101
 30
0.0
 11
384.016606425123
 21
305.9518003347008
 31
0.0
  0
LINE
  8
ITEM_50
 10
383.4701428611829
 20
308.4136223202021
 30
0.0
 11
383.7586581265807
 21
307.1590566530101
 31
0.0
  0
LINE
  8
ITEM_50
 10
383.147001360714
 20
309.7181136368087
 30
0.0
 11
383.4701428611829
 21
308.4136223202021
 31
0.0
  0
LINE
  8
ITEM_50
 10
382.7839458381941
 20
311.0743299864117
 30
0.0
 11
383.147001360714
 21
309.7181136368087
 31
0.0
  0
LINE
  8
ITEM_50
 10
382.3756885066437
 20
312.4840707525928
 30
0.0
 11
382.7839458381941
 21
311.0743299864117
 31
0.0
  0
LINE
  8
ITEM_50
 10
381.9169415790832
 20
313.949135318934
 30
0.0
 11
382.3756885066437
 21
312.4840707525928
 31
0.0
  0
LINE
  8
ITEM_50
 10
381.4024172685327
 20
315.4713230690173
 30
0.0
 11
381.9169415790832
 21
313.949135318934
 31
0.0
  0
LINE
  8
ITEM_50
 10
380.8268277880127
 20
317.0524333864244
 30
0.0
 11
381.4024172685327
 21
315.4713230690173
 31
0.0
  0
LINE
  8
ITEM_50
 10
380.1848853505436
 20
318.6942656547374
 30
0.0
 11
380.8268277880127
 21
317.0524333864244
 31
0.0
  0
LINE
  8
ITEM_50
 10
379.4679677064117
 20
320.4028640103492
 30
0.0
 11
380.1848853505436
 21
318.6942656547374
 31
0.0
  0
LINE
  8
ITEM_50
 10
378.654114754968
 20
322.201251600897
 30
0.0
 11
379.4679677064117
 21
320.4028640103492
 31
0.0
  0
LINE
  8
ITEM_50
 10
377.7180319328294
 20
324.1166963268292
 30
0.0
 11
378.654114754968
 21
322.201251600897
 31
0.0
  0
LINE
  8
ITEM_50
 10
376.634424676613
 20
326.1764660885943
 30
0.0
 11
377.7180319328294
 21
324.1166963268292
 31
0.0
  0
LINE
  8
ITEM_50
 10
375.8164891821342
 20
265.9402477603414
 30
0.0
 11
375.8164891821342
 21
256.9102180474735
 31
0.0
  0
LINE
  8
ITEM_50
 10
375.3164891821342
 20
256.4102180474735
 30
0.0
 11
373.8164891821343
 21
256.4102180474735
 31
0.0
  0
LINE
  8
ITEM_50
 10
90.02159481986836
 20
279.3105789404853
 30
0.0
 11
87.25807225443224
 21
273.5022600801341
 31
0.0
  0
LINE
  8
ITEM_50
 10
90.94447525350943
 20
281.4977240884841
 30
0.0
 11
90.02159481986836
 21
279.3105789404853
 31
0.0
  0
LINE
  8
ITEM_50
 10
92.7608274520802
 20
287.0117325080958
 30
0.0
 11
92.27893788519912
 21
285.3274795562435
 31
0.0
  0
LINE
  8
ITEM_50
 10
92.27893788519912
 20
285.3274795562435
 30
0.0
 11
91.68520504714757
 21
283.4964171883882
 31
0.0
  0
LINE
  8
ITEM_50
 10
91.68520504714757
 20
283.4964171883882
 30
0.0
 11
90.94447525350943
 21
281.4977240884841
 31
0.0
  0
LINE
  8
ITEM_50
 10
94.76647359061132
 20
297.2212291477962
 30
0.0
 11
94.66970850183457
 21
296.1388495469381
 31
0.0
  0
LINE
  8
ITEM_50
 10
94.81779227029096
 20
298.2856671863079
 30
0.0
 11
94.76647359061132
 21
297.2212291477962
 31
0.0
  0
LINE
  8
ITEM_50
 10
94.66970850183457
 20
296.1388495469381
 30
0.0
 11
94.52805564778338
 21
295.0260676377953
 31
0.0
  0
LINE
  8
ITEM_50
 10
94.52805564778338
 20
295.0260676377953
 30
0.0
 11
94.34207367228054
 21
293.8704226744304
 31
0.0
  0
LINE
  8
ITEM_50
 10
94.34207367228054
 20
293.8704226744304
 30
0.0
 11
94.11232121914878
 21
292.6594539109051
 31
0.0
  0
LINE
  8
ITEM_50
 10
94.11232121914878
 20
292.6594539109051
 30
0.0
 11
93.83935693221081
 21
291.3807006012822
 31
0.0
  0
LINE
  8
ITEM_50
 10
93.83935693221081
 20
291.3807006012822
 30
0.0
 11
93.52373945528927
 21
290.0217019996233
 31
0.0
  0
LINE
  8
ITEM_50
 10
93.52373945528927
 20
290.0217019996233
 30
0.0
 11
93.16602743220704
 21
288.569997359991
 31
0.0
  0
LINE
  8
ITEM_50
 10
93.16602743220704
 20
288.569997359991
 30
0.0
 11
92.7608274520802
 21
287.0117325080958
 31
0.0
  0
LINE
  8
ITEM_50
 10
94.81811021814814
 20
298.3441292280148
 30
0.0
 11
94.81779227029096
 21
298.2856671863079
 31
0.0
  0
ARC
  8
ITEM_50
 10
105.3181102181513
 20
264.909528922404
 30
0.0
 40
20.0
 50
154.5555025930675
 51
180.0
  0
LINE
  8
ITEM_50
 10
34.81811021814809
 20
298.3441292280148
 30
0.0
 11
34.81842816600527
 21
298.2856671863079
 31
0.0
  0
LINE
  8
ITEM_50
 10
34.81842816600527
 20
298.2856671863079
 30
0.0
 11
34.86974684568491
 21
297.2212291477962
 31
0.0
  0
LINE
  8
ITEM_50
 10
36.47019300408919
 20
288.569997359991
 30
0.0
 11
36.87539298421603
 21
287.0117325080958
 31
0.0
  0
LINE
  8
ITEM_50
 10
36.11248098100696
 20
290.0217019996233
 30
0.0
 11
36.47019300408919
 21
288.569997359991
 31
0.0
  0
LINE
  8
ITEM_50
 10
35.79686350408542
 20
291.3807006012822
 30
0.0
 11
36.11248098100696
 21
290.0217019996233
 31
0.0
  0
LINE
  8
ITEM_50
 10
35.52389921714745
 20
292.6594539109051
 30
0.0
 11
35.79686350408542
 21
291.3807006012822
 31
0.0
  0
LINE
  8
ITEM_50
 10
35.29414676401569
 20
293.8704226744304
 30
0.0
 11
35.52389921714745
 21
292.6594539109051
 31
0.0
  0
LINE
  8
ITEM_50
 10
35.10816478851285
 20
295.0260676377953
 30
0.0
 11
35.29414676401569
 21
293.8704226744304
 31
0.0
  0
LINE
  8
ITEM_50
 10
34.96651193446166
 20
296.1388495469381
 30
0.0
 11
35.10816478851285
 21
295.0260676377953
 31
0.0
  0
LINE
  8
ITEM_50
 10
34.86974684568491
 20
297.2212291477962
 30
0.0
 11
34.96651193446166
 21
296.1388495469381
 31
0.0
  0
LINE
  8
ITEM_50
 10
36.87539298421603
 20
287.0117325080958
 30
0.0
 11
37.35728255109711
 21
285.3274795562435
 31
0.0
  0
LINE
  8
ITEM_50
 10
37.95101538914866
 20
283.4964171883882
 30
0.0
 11
38.6917451827868
 21
281.4977240884841
 31
0.0
  0
LINE
  8
ITEM_50
 10
38.6917451827868
 20
281.4977240884841
 30
0.0
 11
39.61462561642787
 21
279.3105789404853
 31
0.0
  0
LINE
  8
ITEM_50
 10
39.61462561642787
 20
279.3105789404853
 30
0.0
 11
42.37814818186399
 21
273.5022600801341
 31
0.0
  0
ARC
  8
ITEM_50
 10
24.3181102181449
 20
264.909528922404
 30
0.0
 40
20.0
 50
0.0
 51
25.44449740692774
  0
LINE
  8
ITEM_50
 10
37.35728255109711
 20
285.3274795562435
 30
0.0
 11
37.95101538914866
 21
283.4964171883882
 31
0.0
  0
LINE
  8
ITEM_50
 10
51.81811021814814
 20
362.1102180474673
 30
0.0
 11
77.81811021814814
 21
362.1102180474673
 31
0.0
  0
LINE
  8
ITEM_50
 10
77.81811021814814
 20
362.1102180474673
 30
0.0
 11
77.81811021814814
 21
359.9102180474673
 31
0.0
  0
LINE
  8
ITEM_50
 10
51.81811021814809
 20
362.1102180474673
 30
0.0
 11
51.81811021814814
 21
359.9102180474673
 31
0.0
  0
ARC
  8
ITEM_50
 10
91.81811021814502
 20
346.9102180474673
 30
0.0
 40
1.0
 50
90.0
 51
179.9999999999989
  0
ARC
  8
ITEM_50
 10
37.81811021815133
 20
346.9102180474673
 30
0.0
 40
1.0
 50
0.0000000000008142
 51
90.0
  0
LINE
  8
ITEM_50
 10
90.81811021814496
 20
345.8091975330399
 30
0.0
 11
90.81811021814502
 21
346.9102180474673
 31
0.0
  0
LINE
  8
ITEM_50
 10
91.81811021814502
 20
347.9102180474673
 30
0.0
 11
93.83605941058573
 21
347.9102180474673
 31
0.0
  0
LINE
  8
ITEM_50
 10
37.81811021815133
 20
347.9102180474673
 30
0.0
 11
54.81811021814826
 21
347.9102180474673
 31
0.0
  0
LINE
  8
ITEM_50
 10
38.81811021815133
 20
345.809197533041
 30
0.0
 11
38.81811021815133
 21
346.9102180474673
 31
0.0
  0
ARC
  8
ITEM_50
 10
84.02110483436217
 20
351.9102180474673
 30
0.0
 40
8.0
 50
29.99999999999945
 51
89.99999999999997
  0
ARC
  8
ITEM_50
 10
45.61511560194065
 20
351.9102180474673
 30
0.0
 40
8.0
 50
90.0
 51
149.9999999999999
  0
ARC
  8
ITEM_50
 10
93.83605941058573
 20
348.9102180474673
 30
0.0
 40
1.0
 50
270.0
 51
29.99999999999986
  0
ARC
  8
ITEM_50
 10
35.80016102571698
 20
348.9102180474673
 30
0.0
 40
1.0
 50
150.0
 51
270.0
  0
LINE
  8
ITEM_50
 10
35.80016102571698
 20
347.9102180474673
 30
0.0
 11
37.81811021815133
 21
347.9102180474673
 31
0.0
  0
LINE
  8
ITEM_50
 10
34.93413562193256
 20
349.4102180474673
 30
0.0
 11
38.68691237166513
 21
355.9102180474673
 31
0.0
  0
LINE
  8
ITEM_50
 10
90.9493080646377
 20
355.9102180474671
 30
0.0
 11
94.70208481437015
 21
349.4102180474673
 31
0.0
  0
LINE
  8
ITEM_50
 10
45.61511560194065
 20
359.9102180474673
 30
0.0
 11
84.02110483436217
 21
359.9102180474673
 31
0.0
  0
ARC
  8
ITEM_50
 10
38.81811021814809
 20
340.9102180474735
 30
0.0
 40
4.0
 50
101.536959032777
 51
180.0
  0
ARC
  8
ITEM_50
 10
37.81811021815133
 20
345.809197533041
 30
0.0
 40
1.0
 50
281.5369590327767
 51
0.0
  0
ARC
  8
ITEM_50
 10
90.81811021814814
 20
340.9102180474735
 30
0.0
 40
4.0
 50
0.0
 51
78.4630409672205
  0
ARC
  8
ITEM_50
 10
81.31811021815133
 20
340.9102180474735
 30
0.0
 40
4.0
 50
0.0
 51
89.99999999999997
  0
ARC
  8
ITEM_50
 10
91.81811021814496
 20
345.8091975330399
 30
0.0
 40
1.0
 50
179.9999999999967
 51
258.46304096722
  0
LINE
  8
ITEM_50
 10
48.31811021815127
 20
344.9102180474735
 30
0.0
 11
38.25610095382029
 21
344.9102180474735
 31
0.0
  0
LINE
  8
ITEM_50
 10
81.31811021815133
 20
344.9102180474735
 30
0.0
 11
74.81811021814826
 21
344.9102180474735
 31
0.0
  0
LINE
  8
ITEM_50
 10
336.1134945659392
 20
359.9102180474673
 30
0.0
 11
374.5194837983607
 21
359.9102180474673
 31
0.0
  0
LINE
  8
ITEM_50
 10
381.4476870286363
 20
355.9102180474671
 30
0.0
 11
385.2004637783687
 21
349.4102180474673
 31
0.0
  0
LINE
  8
ITEM_50
 10
325.4325145859312
 20
349.4102180474673
 30
0.0
 11
329.1852913356638
 21
355.9102180474673
 31
0.0
  0
LINE
  8
ITEM_50
 10
326.2985399897156
 20
347.9102180474673
 30
0.0
 11
328.3164891821499
 21
347.9102180474673
 31
0.0
  0
ARC
  8
ITEM_50
 10
326.2985399897156
 20
348.9102180474673
 30
0.0
 40
1.0
 50
150.0
 51
270.0
  0
ARC
  8
ITEM_50
 10
384.3344383745843
 20
348.9102180474673
 30
0.0
 40
1.0
 50
270.0
 51
29.99999999999986
  0
ARC
  8
ITEM_50
 10
336.1134945659392
 20
351.9102180474673
 30
0.0
 40
8.0
 50
90.0
 51
149.9999999999999
  0
ARC
  8
ITEM_50
 10
374.5194837983607
 20
351.9102180474673
 30
0.0
 40
8.0
 50
29.99999999999945
 51
89.99999999999997
  0
LINE
  8
ITEM_50
 10
328.3164891821499
 20
347.9102180474673
 30
0.0
 11
382.3164891821436
 21
347.9102180474673
 31
0.0
  0
LINE
  8
ITEM_50
 10
382.3164891821436
 20
347.9102180474673
 30
0.0
 11
384.3344383745843
 21
347.9102180474673
 31
0.0
  0
LINE
  8
ITEM_50
 10
381.3164891821435
 20
345.6829216880073
 30
0.0
 11
381.3164891821436
 21
346.9102180474673
 31
0.0
  0
ARC
  8
ITEM_50
 10
328.3164891821499
 20
346.9102180474673
 30
0.0
 40
1.0
 50
0.0000000000008142
 51
90.0
  0
ARC
  8
ITEM_50
 10
382.3164891821436
 20
346.9102180474673
 30
0.0
 40
1.0
 50
90.0
 51
179.9999999999989
  0
LINE
  8
ITEM_50
 10
342.3164891821467
 20
362.1102180474673
 30
0.0
 11
342.3164891821467
 21
359.9102180474673
 31
0.0
  0
LINE
  8
ITEM_50
 10
368.3164891821467
 20
362.1102180474673
 30
0.0
 11
368.3164891821467
 21
359.9102180474673
 31
0.0
  0
LINE
  8
ITEM_50
 10
342.3164891821467
 20
362.1102180474673
 30
0.0
 11
368.3164891821467
 21
362.1102180474673
 31
0.0
  0
ARC
  8
ITEM_50
 10
335.3164891821468
 20
256.9102180474735
 30
0.0
 40
0.5
 50
179.9999999999996
 51
270.0
  0
ARC
  8
ITEM_50
 10
336.8164891821468
 20
256.9102180474735
 30
0.0
 40
0.5
 50
270.0
 51
0.0
  0
ARC
  8
ITEM_50
 10
373.8164891821343
 20
256.9102180474735
 30
0.0
 40
0.5
 50
180.0
 51
270.0
  0
ARC
  8
ITEM_50
 10
375.3164891821342
 20
256.9102180474735
 30
0.0
 40
0.5
 50
270.0
 51
0.0000000000003435
  0
LINE
  8
ITEM_50
 10
329.3164891821499
 20
345.68282238878
 30
0.0
 11
329.3164891821499
 21
346.9102180474673
 31
0.0
  0
LINE
  8
ITEM_STPG
 10
355.3164891821468
 20
198.7202885441958
 30
0.0
 11
355.3164891821468
 21
366.9820256265304
 31
0.0
  0
ARC
  8
ITEM_50
 10
329.8072097466221
 20
340.9102180474735
 30
0.0
 40
4.0
 50
107.3461682904012
 51
180.0
  0
ARC
  8
ITEM_50
 10
328.3164891821499
 20
345.68282238878
 30
0.0
 40
1.0
 50
287.3461682903995
 51
0.0
  0
ARC
  8
ITEM_50
 10
380.8260865655161
 20
340.9102180474735
 30
0.0
 40
4.0
 50
0.0000000000000509
 51
72.65764867803306
  0
ARC
  8
ITEM_50
 10
382.3164891821435
 20
345.6829216880072
 30
0.0
 40
1.0
 50
179.9999999999967
 51
252.6576486780317
  0
ARC
  8
ITEM_50
 10
131.6782513798224
 20
344.4960044850976
 30
0.0
 40
0.5
 50
109.4712206344924
 51
180.0
  0
CIRCLE
  8
ITEM_50
 10
158.1782513798223
 20
123.0042181049715
 30
0.0
 40
6.25
  0
CIRCLE
  8
ITEM_HILFE
 10
158.1782513798192
 20
123.0042181049683
 30
0.0
 40
22.37895023753259
  0
LINE
  8
ITEM_STPG
 10
92.72482125703069
 20
123.0042181049683
 30
0.0
 11
298.6949075757734
 21
123.0042181049683
 31
0.0
  0
LINE
  8
ITEM_STPG
 10
158.1782513798192
 20
83.34241376801985
 30
0.0
 11
158.1782513798192
 21
158.4676127708697
 31
0.0
  0
LINE
  8
ITEM_STPG
 10
64.81811021814824
 20
200.8412098299629
 30
0.0
 11
64.81811021814826
 21
366.9820256265304
 31
0.0
  0
ARC
  8
ITEM_50
 10
44.81811021815127
 20
256.9102180474735
 30
0.0
 40
0.5
 50
180.0
 51
270.0
  0
ARC
  8
ITEM_50
 10
46.31811021815133
 20
256.9102180474735
 30
0.0
 40
0.5
 50
269.9999999999992
 51
0.0
  0
ARC
  8
ITEM_50
 10
83.31811021815127
 20
256.9102180474735
 30
0.0
 40
0.5
 50
179.9999999999999
 51
270.0
  0
ARC
  8
ITEM_50
 10
84.81811021815133
 20
256.9102180474735
 30
0.0
 40
0.5
 50
270.0
 51
0.0
  0
LINE
  8
ITEM_STPG
 10
158.1782513798161
 20
340.2363898570788
 30
0.0
 11
158.1782513798161
 21
366.9569199421848
 31
0.0
  0
LINE
  8
ITEM_STPG
 10
185.2865812450086
 20
334.9102180474703
 30
0.0
 11
195.9850032113964
 21
334.9102180474703
 31
0.0
  0
LINE
  8
ITEM_STPG
 10
190.1509180058131
 20
329.948042204985
 30
0.0
 11
190.1509180058131
 21
340.0145004048495
 31
0.0
  0
LINE
  8
ITEM_STPG
 10
131.1421161409574
 20
267.4102180474703
 30
0.0
 11
266.7301345905356
 21
267.4102180474703
 31
0.0
  0
LINE
  8
ITEM_STPG
 10
200.6782513798161
 20
330.2955897306205
 30
0.0
 11
200.6782513798161
 21
202.055726100095
 31
0.0
  0
LINE
  8
ITEM_50
 10
222.1514416626393
 20
344.6063731077146
 30
0.0
 11
260.4282513798264
 21
337.8571388191305
 31
0.0
  0
LINE
  8
ITEM_50
 10
223.2924199639614
 20
312.225311906699
 30
0.0
 11
269.6370114432571
 21
320.3971137944105
 31
0.0
  0
LINE
  8
ITEM_50
 10
212.8547939509028
 20
263.6676747190931
 30
0.0
 11
216.7161405899768
 21
305.0893932109787
 31
0.0
  0
ARC
  8
ITEM_50
 10
204.8893291555828
 20
264.4102180474703
 30
0.0
 40
8.0
 50
270.0
 51
354.6742593752323
  0
ARC
  8
ITEM_50
 10
224.6816053852968
 20
304.3468498826014
 30
0.0
 40
8.0
 50
100.0
 51
174.6742593752323
  0
ARC
  8
ITEM_50
 10
250.0495439063803
 20
325.0667276789939
 30
0.0
 40
8.0
 50
280.0
 51
350.0
  0
LINE
  8
ITEM_50
 10
292.4258202333833
 20
333.139472267623
 30
0.0
 11
272.9935510082539
 21
321.6393134719638
 31
0.0
  0
LINE
  8
ITEM_50
 10
292.0121801740817
 20
337.7653582093402
 30
0.0
 11
293.1283915355638
 21
335.87925210647
 31
0.0
  0
LINE
  8
ITEM_50
 10
289.6257299741951
 20
338.63286360577
 30
0.0
 11
280.4095335883994
 21
335.3820973595996
 31
0.0
  0
ARC
  8
ITEM_50
 10
290.291004603568
 20
336.7467539410068
 30
0.0
 40
2.0
 50
30.6173564237043
 51
109.4289281555156
  0
ARC
  8
ITEM_50
 10
291.4072159650501
 20
334.8606478381368
 30
0.0
 40
2.0
 50
300.6173564237039
 51
30.61735642370457
  0
LINE
  8
ITEM_50
 10
260.4282513798192
 20
337.8571388190897
 30
0.0
 11
257.9280059304779
 21
323.6775422576585
 31
0.0
  0
LINE
  8
ITEM_50
 10
260.4282513798192
 20
133.0042181049683
 30
0.0
 11
260.4282513798192
 21
113.0042181049683
 31
0.0
  0
LINE
  8
ITEM_50
 10
260.4282513798264
 20
337.8571388191305
 30
0.0
 11
276.3592496495726
 21
335.0480739945544
 31
0.0
  0
LINE
  8
ITEM_50
 10
257.4440853449457
 20
343.9681741713653
 30
0.0
 11
256.4890203677704
 21
338.5517315297574
 31
0.0
  0
LINE
  8
ITEM_50
 10
247.5960078148236
 20
345.7046559480347
 30
0.0
 11
246.6409428376483
 21
340.2882133064267
 31
0.0
  0
LINE
  8
ITEM_50
 10
245.0757049999542
 20
348.687619863566
 30
0.0
 11
260.8326290481496
 21
345.9092490208952
 31
0.0
  0
LINE
  8
ITEM_50
 10
244.641584555787
 20
346.2256004810354
 30
0.0
 11
260.3985086039823
 21
343.4472296383646
 31
0.0
  0
LINE
  8
ITEM_50
 10
245.0757049999543
 20
348.687619863566
 30
0.0
 11
244.641584555787
 21
346.2256004810354
 31
0.0
  0
LINE
  8
ITEM_50
 10
260.8326290481496
 20
345.9092490208952
 30
0.0
 11
260.3985086039823
 21
343.4472296383646
 31
0.0
  0
ARC
  8
ITEM_HILFE
 10
187.0577799690376
 20
92.50421810497151
 30
0.0
 40
12.5
 50
89.44779117989288
 51
99.71100117518305
  0
LINE
  8
ITEM_HILFE
 10
187.0577799690375
 20
141.0042181049714
 30
0.0
 11
220.4282513798192
 21
139.5042181049683
 31
0.0
  0
LINE
  8
ITEM_HILFE
 10
187.0577799690376
 20
105.0042181049715
 30
0.0
 11
220.4282513798192
 21
106.5042181049683
 31
0.0
  0
LINE
  8
ITEM_HILFE
 10
262.676243033854
 20
104.5042181049716
 30
0.0
 11
288.5125595172121
 21
104.5042181049717
 31
0.0
  0
LINE
  8
ITEM_HILFE
 10
262.7971923590183
 20
141.5042181049713
 30
0.0
 11
288.5125595172121
 21
141.5042181049712
 31
0.0
  0
LINE
  8
ITEM_HILFE
 10
258.962211446778
 20
104.5775201016236
 30
0.0
 11
220.4282513798192
 21
106.5042181049683
 31
0.0
  0
LINE
  8
ITEM_HILFE
 10
258.7313410205005
 20
141.4193725870052
 30
0.0
 11
220.4282513798192
 21
139.5042181049683
 31
0.0
  0
LINE
  8
ITEM_HILFE
 10
290.5125595172121
 20
139.5042181049712
 30
0.0
 11
290.5125595172121
 21
106.5042181049717
 31
0.0
  0
LINE
  8
ITEM_50
 10
293.4282513798192
 20
141.5042181049712
 30
0.0
 11
293.4282513798193
 21
104.5042181049717
 31
0.0
  0
ARC
  8
ITEM_50
 10
291.4282513798192
 20
141.5042181049712
 30
0.0
 40
2.0
 50
0.0
 51
89.99999999999984
  0
ARC
  8
ITEM_50
 10
291.4282513798193
 20
104.5042181049717
 30
0.0
 40
2.0
 50
270.0000000000001
 51
0.0
  0
LINE
  8
ITEM_HILFE
 10
290.7177322172457
 20
141.0168420748181
 30
0.0
 11
292.3880488269335
 21
142.1625849642566
 31
0.0
  0
LINE
  8
ITEM_HILFE
 10
290.7177322172457
 20
104.9915941351185
 30
0.0
 11
292.3880488269335
 21
103.84585124568
 31
0.0
  0
LINE
  8
ITEM_50
 10
245.0757049999511
 20
133.0042181049683
 30
0.0
 11
245.0757049999511
 21
113.0042181049683
 31
0.0
  0
LINE
  8
ITEM_50
 10
260.8326290481464
 20
143.5042181049713
 30
0.0
 11
260.8326290481464
 21
102.5042181049716
 31
0.0
  0
LINE
  8
ITEM_50
 10
260.4282513798192
 20
133.0042181049683
 30
0.0
 11
245.0757049999511
 21
133.0042181049683
 31
0.0
  0
LINE
  8
ITEM_50
 10
260.4282513798192
 20
113.0042181049683
 30
0.0
 11
245.0757049999511
 21
113.0042181049683
 31
0.0
  0
LINE
  8
ITEM_50
 10
245.0757049999511
 20
133.0042181049683
 30
0.0
 11
244.6415845557838
 21
133.0042181049683
 31
0.0
  0
LINE
  8
ITEM_50
 10
245.0757049999511
 20
113.0042181049683
 30
0.0
 11
244.6415845557838
 21
113.0042181049683
 31
0.0
  0
LINE
  8
ITEM_50
 10
244.6415845557838
 20
133.0042181049683
 30
0.0
 11
244.6415845557838
 21
113.0042181049683
 31
0.0
  0
LINE
  8
ITEM_50
 10
252.251978189882
 20
131.5042181049683
 30
0.0
 11
252.251978189882
 21
114.5042181049683
 31
0.0
  0
LINE
  8
ITEM_50
 10
253.2519781898819
 20
131.5042181049683
 30
0.0
 11
253.251978189882
 21
114.5042181049683
 31
0.0
  0
ARC
  8
ITEM_50
 10
252.751978189882
 20
131.5042181049683
 30
0.0
 40
0.5
 50
0.0
 51
180.0
  0
ARC
  8
ITEM_50
 10
252.751978189882
 20
114.5042181049683
 30
0.0
 40
0.5
 50
180.0
 51
0.0
  0
ARC
  8
ITEM_50
 10
250.251978189882
 20
131.5042181049683
 30
0.0
 40
0.5
 50
0.0
 51
180.0
  0
LINE
  8
ITEM_50
 10
250.7519781898819
 20
131.5042181049683
 30
0.0
 11
250.751978189882
 21
114.5042181049683
 31
0.0
  0
LINE
  8
ITEM_50
 10
249.751978189882
 20
131.5042181049683
 30
0.0
 11
249.751978189882
 21
114.5042181049683
 31
0.0
  0
ARC
  8
ITEM_50
 10
250.251978189882
 20
114.5042181049683
 30
0.0
 40
0.5
 50
180.0
 51
0.0
  0
LINE
  8
ITEM_50
 10
247.251978189882
 20
131.5042181049682
 30
0.0
 11
247.251978189882
 21
114.5042181049683
 31
0.0
  0
LINE
  8
ITEM_50
 10
248.2519781898819
 20
131.5042181049682
 30
0.0
 11
248.251978189882
 21
114.5042181049683
 31
0.0
  0
ARC
  8
ITEM_50
 10
247.751978189882
 20
131.5042181049682
 30
0.0
 40
0.5
 50
0.0
 51
180.0
  0
ARC
  8
ITEM_50
 10
247.751978189882
 20
114.5042181049683
 30
0.0
 40
0.5
 50
180.0
 51
0.0
  0
ARC
  8
ITEM_50
 10
255.251978189882
 20
131.5042181049683
 30
0.0
 40
0.5
 50
0.0
 51
180.0
  0
LINE
  8
ITEM_50
 10
255.7519781898819
 20
131.5042181049683
 30
0.0
 11
255.751978189882
 21
114.5042181049683
 31
0.0
  0
LINE
  8
ITEM_50
 10
254.751978189882
 20
131.5042181049683
 30
0.0
 11
254.751978189882
 21
114.5042181049683
 31
0.0
  0
ARC
  8
ITEM_50
 10
255.251978189882
 20
114.5042181049683
 30
0.0
 40
0.5
 50
180.0
 51
0.0
  0
ARC
  8
ITEM_50
 10
257.751978189882
 20
114.5042181049684
 30
0.0
 40
0.5
 50
180.0
 51
0.0
  0
LINE
  8
ITEM_50
 10
257.251978189882
 20
131.5042181049683
 30
0.0
 11
257.251978189882
 21
114.5042181049684
 31
0.0
  0
ARC
  8
ITEM_50
 10
257.751978189882
 20
131.5042181049683
 30
0.0
 40
0.5
 50
0.0
 51
180.0
  0
LINE
  8
ITEM_50
 10
258.2519781898819
 20
131.5042181049683
 30
0.0
 11
258.251978189882
 21
114.5042181049684
 31
0.0
  0
LINE
  8
ITEM_50
 10
285.9282513798192
 20
140.1364950357184
 30
0.0
 11
285.9282513798192
 21
105.8719411742182
 31
0.0
  0
LINE
  8
ITEM_50
 10
286.9282513798191
 20
140.1364950357184
 30
0.0
 11
286.9282513798192
 21
105.8719411742182
 31
0.0
  0
ARC
  8
ITEM_50
 10
286.4282513798192
 20
140.1364950357184
 30
0.0
 40
0.5
 50
0.0
 51
180.0
  0
ARC
  8
ITEM_50
 10
278.9282513798192
 20
140.1364950357183
 30
0.0
 40
0.5
 50
0.0
 51
180.0
  0
LINE
  8
ITEM_50
 10
279.4282513798191
 20
140.1364950357183
 30
0.0
 11
279.4282513798192
 21
105.8719411742183
 31
0.0
  0
LINE
  8
ITEM_50
 10
278.4282513798192
 20
140.1364950357183
 30
0.0
 11
278.4282513798192
 21
105.8719411742183
 31
0.0
  0
LINE
  8
ITEM_50
 10
280.9282513798192
 20
140.1364950357183
 30
0.0
 11
280.9282513798192
 21
105.8719411742183
 31
0.0
  0
LINE
  8
ITEM_50
 10
281.9282513798191
 20
140.1364950357183
 30
0.0
 11
281.9282513798192
 21
105.8719411742183
 31
0.0
  0
ARC
  8
ITEM_50
 10
281.4282513798192
 20
140.1364950357183
 30
0.0
 40
0.5
 50
0.0
 51
180.0
  0
ARC
  8
ITEM_50
 10
283.9282513798192
 20
140.1364950357184
 30
0.0
 40
0.5
 50
0.0
 51
180.0
  0
LINE
  8
ITEM_50
 10
284.4282513798191
 20
140.1364950357184
 30
0.0
 11
284.4282513798193
 21
105.8719411742182
 31
0.0
  0
LINE
  8
ITEM_50
 10
283.4282513798192
 20
140.1364950357184
 30
0.0
 11
283.4282513798192
 21
105.8719411742182
 31
0.0
  0
ARC
  8
ITEM_50
 10
283.9282513798192
 20
105.8719411742182
 30
0.0
 40
0.5
 50
180.0
 51
0.0
  0
ARC
  8
ITEM_50
 10
281.4282513798192
 20
105.8719411742183
 30
0.0
 40
0.5
 50
180.0
 51
0.0
  0
ARC
  8
ITEM_50
 10
278.9282513798192
 20
105.8719411742183
 30
0.0
 40
0.5
 50
180.0
 51
0.0
  0
ARC
  8
ITEM_50
 10
286.4282513798192
 20
105.8719411742182
 30
0.0
 40
0.5
 50
180.0
 51
0.0
  0
LINE
  8
ITEM_HILFE
 10
261.8594475069216
 20
335.5739271034667
 30
0.0
 11
276.0119532942388
 21
333.07845848853
 31
0.0
  0
LINE
  8
ITEM_HILFE
 10
289.4555368363274
 20
336.4520650798087
 30
0.0
 11
281.0748082177723
 21
333.4959876948365
 31
0.0
  0
LINE
  8
ITEM_HILFE
 10
290.3830804963558
 20
334.2545569909073
 30
0.0
 11
271.9749467399207
 21
323.3604890424776
 31
0.0
  0
LINE
  8
ITEM_HILFE
 10
258.4520647641675
 20
320.455759140873
 30
0.0
 11
269.2897150879232
 21
322.3667293004349
 31
0.0
  0
LINE
  8
ITEM_HILFE
 10
258.282543049145
 20
335.6969185608462
 30
0.0
 11
221.7173212184719
 21
342.144353725184
 31
0.0
  0
ARC
  8
ITEM_50
 10
218.6784781093007
 20
324.9102180474703
 30
0.0
 40
20.0
 50
80.00000000000001
 51
90.0
  0
ARC
  8
ITEM_HILFE
 10
218.6784781093007
 20
324.9102180474703
 30
0.0
 40
17.5
 50
80.00000000000001
 51
90.0
  0
ARC
  8
ITEM_50
 10
277.7484350709081
 20
342.926536018652
 30
0.0
 40
8.0
 50
260.0
 51
289.4289281555156
  0
ARC
  8
ITEM_HILFE
 10
277.7484350709081
 20
342.926536018652
 30
0.0
 40
10.0
 50
260.0
 51
289.4289281555156
  0
ARC
  8
ITEM_50
 10
267.9005296665878
 20
330.2451913245326
 30
0.0
 40
10.0
 50
280.0
 51
300.6173564237039
  0
ARC
  8
ITEM_HILFE
 10
267.9005296665878
 20
330.2451913245326
 30
0.0
 40
8.0
 50
280.0
 51
300.6173564237039
  0
ARC
  8
ITEM_HILFE
 10
289.7580889447035
 20
335.2852619886072
 30
0.0
 40
1.205390904196793
 50
300.0032266104047
 51
114.3212109219764
  0
CIRCLE
  8
ITEM_50
 10
190.1509180058131
 20
334.9102180474703
 30
0.0
 40
3.6
  0
LINE
  8
ITEM_50
 10
192.7509180058099
 20
145.5042181049714
 30
0.0
 11
187.5509180058099
 21
145.5042181049714
 31
0.0
  0
LINE
  8
ITEM_50
 10
192.7509180058099
 20
100.5042181049715
 30
0.0
 11
187.5509180058099
 21
100.5042181049715
 31
0.0
  0
LINE
  8
ITEM_50
 10
186.5509180058099
 20
144.5042181049714
 30
0.0
 11
186.5509180058099
 21
143.5170718183572
 31
0.0
  0
LINE
  8
ITEM_50
 10
193.7509180058099
 20
144.5042181049714
 30
0.0
 11
193.7509180058099
 21
143.5042181049714
 31
0.0
  0
LINE
  8
ITEM_50
 10
193.7509180058099
 20
102.5042181049715
 30
0.0
 11
193.7509180058099
 21
101.5042181049715
 31
0.0
  0
LINE
  8
ITEM_50
 10
186.5509180058099
 20
102.4913643915857
 30
0.0
 11
186.5509180058099
 21
101.5042181049715
 31
0.0
  0
ARC
  8
ITEM_50
 10
187.5509180058099
 20
144.5042181049714
 30
0.0
 40
1.0
 50
90.0
 51
180.0
  0
ARC
  8
ITEM_50
 10
192.7509180058099
 20
144.5042181049714
 30
0.0
 40
1.0
 50
0.0
 51
89.99999999999987
  0
ARC
  8
ITEM_50
 10
187.5509180058099
 20
101.5042181049715
 30
0.0
 40
1.0
 50
179.9999999999991
 51
270.0000000000001
  0
ARC
  8
ITEM_50
 10
192.7509180058099
 20
101.5042181049715
 30
0.0
 40
1.0
 50
270.0000000000002
 51
0.0
  0
LINE
  8
ITEM_HILFE
 10
290.4755703935393
 20
338.0845826129519
 30
0.0
 11
290.2824923658264
 21
337.1193455982059
 31
0.0
  0
LINE
  8
ITEM_HILFE
 10
291.4144518040642
 20
334.601092918661
 30
0.0
 11
292.4328227342647
 21
334.0727767190337
 31
0.0
  0
LINE
  8
ITEM_50
 10
337.3164891821468
 20
317.1882656548931
 30
0.0
 11
339.2309477285778
 21
317.1882656548931
 31
0.0
  0
LINE
  8
ITEM_50
 10
371.2309477285778
 20
317.1882656548931
 30
0.0
 11
373.3164891821342
 21
317.1882656548931
 31
0.0
  0
LINE
  8
ITEM_50
 10
46.31811021815127
 20
317.1882656548931
 30
0.0
 11
48.73256876457918
 21
317.1882656548931
 31
0.0
  0
LINE
  8
ITEM_50
 10
83.31811021814519
 20
317.1882656548931
 30
0.0
 11
80.73256876457918
 21
317.1882656548931
 31
0.0
  0
LINE
  8
ITEM_50
 10
62.91811021814822
 20
329.9102180474703
 30
0.0
 11
62.91811021814822
 21
332.2467539410038
 31
0.0
  0
LINE
  8
ITEM_50
 10
66.71811021814824
 20
329.9102180474703
 30
0.0
 11
66.71811021814824
 21
332.2467539410038
 31
0.0
  0
LINE
  8
ITEM_50
 10
62.41811021814822
 20
332.7467539410038
 30
0.0
 11
82.01811021814523
 21
332.7467539410038
 31
0.0
  0
ARC
  8
ITEM_50
 10
48.31811021814519
 20
340.9102180474735
 30
0.0
 40
4.0
 50
90.00000000000002
 51
180.0
  0
LINE
  8
ITEM_50
 10
47.11811021815128
 20
332.2467539410038
 30
0.0
 11
47.11811021815128
 21
317.1882656548932
 31
0.0
  0
LINE
  8
ITEM_50
 10
82.51811021814523
 20
332.2467539410038
 30
0.0
 11
82.51811021814518
 21
317.1882656548932
 31
0.0
  0
ARC
  8
ITEM_50
 10
67.21811021814824
 20
332.2467539410038
 30
0.0
 40
0.5
 50
90.0
 51
180.0
  0
ARC
  8
ITEM_50
 10
62.41811021814822
 20
332.2467539410038
 30
0.0
 40
0.5
 50
0.0
 51
89.99999999999992
  0
LINE
  8
ITEM_50
 10
44.31811021815127
 20
256.9102180474735
 30
0.0
 11
44.31811021815127
 21
332.7467539410038
 31
0.0
  0
LINE
  8
ITEM_50
 10
47.61811021815128
 20
332.7467539410038
 30
0.0
 11
62.41811021814822
 21
332.7467539410038
 31
0.0
  0
ARC
  8
ITEM_50
 10
47.61811021815128
 20
332.2467539410038
 30
0.0
 40
0.5
 50
89.99999999999991
 51
180.0
  0
ARC
  8
ITEM_50
 10
82.01811021814523
 20
332.2467539410038
 30
0.0
 40
0.5
 50
359.9999999999999
 51
90.0
  0
ARC
  8
ITEM_50
 10
46.31811021815127
 20
319.1882656548931
 30
0.0
 40
2.0
 50
180.0
 51
270.0
  0
ARC
  8
ITEM_50
 10
83.31811021814519
 20
319.1882656548931
 30
0.0
 40
2.0
 50
270.0
 51
0.0
  0
LINE
  8
ITEM_50
 10
44.31811021815127
 20
335.7467539410038
 30
0.0
 11
44.31811021815127
 21
332.7467539410038
 31
0.0
  0
LINE
  8
ITEM_50
 10
85.31811021815133
 20
335.7467539410038
 30
0.0
 11
85.31811021815133
 21
256.9102180474735
 31
0.0
  0
LINE
  8
ITEM_50
 10
82.31811021815133
 20
338.7467539410038
 30
0.0
 11
47.31811021815127
 21
338.7467539410038
 31
0.0
  0
ARC
  8
ITEM_50
 10
47.31811021815127
 20
335.7467539410038
 30
0.0
 40
3.0
 50
89.99999999999994
 51
180.0
  0
ARC
  8
ITEM_50
 10
82.31811021815133
 20
335.7467539410038
 30
0.0
 40
3.0
 50
0.0
 51
89.99999999999992
  0
LINE
  8
ITEM_HILFE
 10
82.67624511563167
 20
333.596217634658
 30
0.0
 11
83.76199056612466
 21
337.3957239631372
 31
0.0
  0
LINE
  8
ITEM_HILFE
 10
46.96312257294573
 20
333.5852039988621
 30
0.0
 11
45.89612436214889
 21
337.3191053958775
 31
0.0
  0
LINE
  8
ITEM_50
 10
54.81811021814826
 20
345.909249020892
 30
0.0
 11
74.81811021814826
 21
345.909249020892
 31
0.0
  0
LINE
  8
ITEM_50
 10
54.81811021814826
 20
343.4472296383615
 30
0.0
 11
74.81811021814826
 21
343.4472296383615
 31
0.0
  0
LINE
  8
ITEM_50
 10
54.81811021814826
 20
348.6876198635629
 30
0.0
 11
74.81811021814826
 21
348.6876198635629
 31
0.0
  0
LINE
  8
ITEM_50
 10
54.81811021814826
 20
343.4472296383615
 30
0.0
 11
54.81811021814826
 21
348.6876198635629
 31
0.0
  0
LINE
  8
ITEM_50
 10
74.81811021814826
 20
343.4472296383615
 30
0.0
 11
74.81811021814826
 21
348.6876198635629
 31
0.0
  0
LINE
  8
ITEM_50
 10
58.81811021814826
 20
338.7467539410038
 30
0.0
 11
58.81811021814826
 21
343.4472296383615
 31
0.0
  0
LINE
  8
ITEM_50
 10
70.81811021814826
 20
338.7467539410038
 30
0.0
 11
70.81811021814826
 21
343.4472296383615
 31
0.0
  0
LINE
  8
ITEM_50
 10
74.81811021814826
 20
347.9102180474673
 30
0.0
 11
91.81811021814502
 21
347.9102180474673
 31
0.0
  0
LINE
  8
ITEM_50
 10
54.81811021814826
 20
344.9102180474735
 30
0.0
 11
48.31811021815127
 21
344.9102180474735
 31
0.0
  0
ARC
  8
ITEM_HILFE
 10
187.0577799690375
 20
153.5042181049714
 30
0.0
 40
12.5
 50
259.5039445508214
 51
270.0000000000003
  0
LINE
  8
ITEM_HILFE
 10
220.4282513798159
 20
109.0790976435325
 30
0.0
 11
220.4282513798159
 21
136.8385337247351
 31
0.0
  0
ENDSEC
  0
EOF
